Kurs gry na gitarze PDF [pobierz teraz]

Power Chords

Przeglądając rozpiski różnych utworów, możesz się czasem natknąć na takie oto oznaczenia chwytu:

D5, A5, C5 i tak dalej...

Jeżeli czytasz uważnie, to z działu budowa akordów wiesz, że cyferka przy literce najczęściej oznacza, że do akordu podstawowego należy dodać jakiś interwał.

Tutaj powinno pojawić się pytanie: no ale jak można do akordu dodać kwintę, skoro kwinta od razu w każdym akordzie, nie ważne czy durowym czy molowym, występuje?



Otóż właśnie wcale nie o to tutaj chodzi.

W tym przypadku nie oznacza to, że akord ma dodaną kwintę (bo nie może, od zawsze ją miał), tylko że akord ma wyeksponowaną kwintę.

Kolejne Twoje pytanie powinno teraz brzmieć: w jaki sposób można w akordzie wyeksponować kwintę? Zagrać ją głośniej, inaczej?

Otóż znowu nie, wyeksponowanie kwinty polega w tym przypadku na usunięciu z akordu tercji, czyli w tym momencie akord staje się bardzo prosty, zawiera bowiem tylko dwa dźwięki - podstawowy i odsunięty o kwintę. Jeżeli chcielibyśmy ściśle trzymać się zasad, to takie coś nie powinno nazywać się akordem, lecz dwudźwiękiem, gdyż akord z założenia powinien mieć co najmiej trzy dźwięki.

Akord ten prawdopodobnie przez swoje brzmienie nazywany jest power chord (czyli mocny akord). Bardzo chętnie power chordy wykorzystują zespoły punk-rockowe, wiele ich piosenek składa się wyłącznie z takich akordów.

Ale zanim założysz trampki, koszulkę z sierpem i młotem, i zaczniesz wykrzykiwać protest songi, możesz zwrócić uwagę na fakt, że power chord to nie jest akord ani durowy, ani molowy. Przypominam, że o tym, czy akord był durowy czy molowy, decydowała obecność tercji wielkiej lub małej. W tym przypadku nie mamy żadnej tercji, więc nie możemy nic na ten temat powiedzieć. Oprócz tego, power chordy oznaczane są zawsze z dużej litery.

Jak grać power chordy?

Przejdźmy do sedna tematu - jak taki power chord zagrać?

Schemat jest bardzo prosty, bowiem do zagrania power chordów wykorzystuje się dwa, albo maksymalnie trzy palce lewej ręki.

Weźmy na przykład power chord C, czyli C5. Do jego zagrania potrzebny jest Ci dźwięk podstawowy (czyli pryma, w tym przypadku C), oraz dźwięk oddalony o kwintę (czyli o 7 półtonów, w tym przypadku będzie to G).

x|---|---|---|---|---|---|
x|---|---|---|---|---|---|
x|---|---|---|---|---|---| C5
o|---|---|---|---|-2-|---|
o|---|---|-1-|---|---|---|
x|---|---|---|---|---|---|

Palcem wskazującym przyciskasz strunę A na trzecim progu, palcem środkowym strunę D na piątym progu i uwaga - trącasz tylko te dwie struny. Power chord jak widać jest bardzo prosty, największą trudność może sprawić Ci na początku prawidłowe pomijanie strun. Możesz również przytłumić nieużywane struny.

Za mało pałera? Dodaj oktawę!

Często power chordy gra się tak, że oprócz dźwięku podstawowego (prymy) dodaje się jeszcze dźwięk oddalony o oktawę. Czyli w przypadku C5 będzie to kolejny dźwięk c, a do zagrania będą potrzebne trzy palce:

x|---|---|---|---|---|---|
x|---|---|---|---|---|---|
o|---|---|---|---|-3-|---| C5
o|---|---|---|---|-2-|---|
o|---|---|-1-|---|---|---|
x|---|---|---|---|---|---|

W tym przypadku, dostawiasz dodatkowo palec serdeczny na piątym progu struny G i trącasz trzy struny.

Oczywiście, możesz do zagrania tego power chordu wykorzystać inne palce (na przykład serdeczny i mały). Łatwo też zauważyć, że tak prosty akord może występować w różnych miejscach na gryfie. Oto różne możliwości zagrania C5, przedstawione na tabulaturze:

e |--------------------|
H |--------------------|
G |-------5------------| C5
D |---5---5-------10---|
A |---3---3---10--10---|
E |-----------8---8----|

Z pewnością też domyślasz się, że wiele lepiej takie akordy brzmią grane na gitarze elektrycznej.

W analogiczny sposób możemy odnaleźć na gryfie inne power chordy. Obowiązuje tutaj ta sama zasada, jak przy przesuwania akordów barowych. Jeżeli więc chcesz zagrać jakikolwiek power chord to wystarczy, że znajdziesz jego dźwięk podstawowy na strunie E lub A, przyciśniesz go palcem wskazującym, a serdeczny i środkowy ułożysz na kolejnych strunach dwa progi wyżej. Na przykład:

e |--------------------|
H |--------------------|
G |-------2------------| A5
D |---2---2-------7----|
A |---0---0---7---7----|
E |-----------5---5----|
e |--------------------|
H |--------------------|
G |---------------9----| E5
D |-------2---9---9----|
A |---2---2---7---7----|
E |---0---0------------|
e |--------------------|
H |--------------------|
G |-------7------------| D5
D |---7---7--------12--|
A |---5---5---12---12--|
E |-----------10---10--|

Zapewne widzisz już, że do zagrania większości power chordów wystarczy jedno i to samo ułożenie palców lewej ręki, zmieniają się tylko pozycje, w których to ułożenie występuje na gryfie.

Czas na ćwiczenie

Porządna lekcja na temat power chordów nie ma prawa zakończyć się bez zagrania chyba najczęściej wykorzystywanego ich przykładu, czyli Smoke on the water:

e |---------------------|-----------------------|
H |---------------------|-----------------------|
G |---------------------|-----------------------|
D |--2----5----7--------|--2----5---8-7---------|
A |--0----3----5--------|--0----3---6-5---------|
E |---------------------|-----------------------|

e |---------------------|-----------------------|
H |---------------------|-----------------------|
G |---------------------|-----------------------|
D |--2----5----7--------|-5----2----------------|
A |--0----3----5--------|-3----0----------------|
E |---------------------|-----------------------|

Power Chords na akustyku

Power chordy najczęściej występują w partiach granych przez gitarzystów elektrycznych. Przy pomocy odpowiednich wzmocnień i przesterów możesz nawet z jednej struny (a co dopiero z trzech) wydobyć tyle czadu, że, jak to mówią niektórzy użytkownicy naszego forum, sam szatan zawyje z zachwytu.

Gitary akustyczne natomiast pokazują co potrafią gdy bez opamiętania machasz ręką tam i z powrotem po wszystkich strunach. Możesz więc trochę poeksperymentować i uzyskać ciekawe efekty muzyczne, kiedy grając jakiegoś power chorda zignorujesz pomijanie strun. Oczywiście ściśle rzecz biorąc, nie będzie to już power chord, tylko jakiś akord, a może i przewrót, ale akompaniament może Ci wyjść całkiem ciekawy.

Niech moc będzie z Tobą!