Kurs gry na gitarze PDF [pobierz teraz]

Palcowanie na gitarze

Generalnie rzecz biorąc, o palcowaniu mówimy, kiedy gramy na gitarze nie piórkiem, lecz palcami. Szczególnie często w ten sposób grają gitarzyści klasyczni.

Pisałem już o tym trochę w dziale pierwsze ćwiczenia. Wiesz już, że z reguły kciuk wykorzystywany jest do gry na strunach basowych, i to właśnie on prowadzi linię basową utworu, natomiast pozostałe palce prawej dłoni grają na strunach wiolinowych i odpowiadają za linię melodyczną.

Tutaj natomiast chciałbym opisać jedną z odmian palcowania, jaką jest palcowanie chwytów gitarowych.

Ten sposób gry polega na tym, że lewą dłonią łapiesz najnormalniej w świecie jakiś chwyt gitarowy, jednak nie uderzasz po strunach prawą dłonią lecz grasz poszczególne dźwięki chwytu osobno.



Taki sposób jest wykorzystywany we wstępach do wielu utworów, możesz więc dzięki niemu urozmaicić swoją grę, zanim na przykład przejdziesz do bicia i darcia (ale to zabrzmiało ;)).

Pewnie zastanawiasz się teraz które dźwięki chwytu grać?

Nie ma na to jednej uniwersalnej reguły, natomiast bardzo często spotyka się taki schemat:

  • łapiesz chwyt
  • kciukiem grasz dźwięk podstawowy chwytu
  • pozostałymi palcami prawej dłoni grasz tam i z powrotem, z góry na dół i z dołu do góry poszczególne struny wiolinowe

Na przykład dla chwytu C-dur będzie to wyglądało tak (zaczynasz od dźwięku C):

e |-----------0--------| « serdeczny
H |--------1-----1-----| « środkowy
G |-----0-----------0--| « wskazujący
D |--------------------|
A |--3-----------------| « kciuk
E |--------------------|

Analogicznie dla D-dur (zaczynasz od D):

e |-----------2--------|
H |--------3-----3-----|
G |-----2-----------2--|
D |--0-----------------|
A |--------------------|
E |--------------------|

Podobnie będzie dla F-dur i innych chwytów barowych:

e |-----------1--------|
H |--------1-----1-----|
G |-----2-----------2--|
D |--3-----------------|
A |--------------------|
E |--------------------|

W przypadku chwytu E-dur zaczynamy oczywiście od dźwięku E:

e |-----------0--------|
H |--------0-----0-----|
G |-----1-----------1--|
D |--------------------|
A |--------------------|
E |--0-----------------|

Oczywiście równie dobrze jak palcami (a może czasem nawet i lepiej bo wyraźniej), możesz grać to piórkiem.

Pamiętaj, że jest to jeden ze sposobów, który możesz wykorzystać, gdy znasz chwyty dla jakiegoś utworu i chcesz sprawdzić jak by dla niego brzmiał wstęp zagrany na przykład w ten sposób.

W bardzo podobny sposób grany jest właśnie wstęp do utworu "Dom Wschodzącego Słońca". Sprawdź to! Chwyty idą po kolei: a C D F, a C E E.

Inną możliwością jest zmienianie chwytów, a prawą dłonią granie w kółko tego samego schematu. W ten sposób na przykład grając poniższą tabulaturę może się okazać, że brzmi ona zupełnie jak "Nie płacz Ewka". Łapiesz po kolei chwyty A fis i E:

e |-----------0-----------|-----------2-----------|-----------0-----------|
H |--------2-----2--------|--------2-----2--------|--------0-----0--------|
G |-----2-----------2-----|-----2-----------2-----|-----1-----------1-----|
D |--2-----------------2--|--4-----------------4--|--2-----------------2--|
A |-----------------------|-----------------------|-----------------------|
E |-----------------------|-----------------------|-----------------------|

Zachęcam Cię do eksperymentów i wymyślania własnych sposobów palcowania chwytów gitarowych.

W ten sposób możesz sobie wymyślić z pewnością bardzo wiele ciekawych ćwiczeń, utrwalić położenie poszczególnych dźwięków na gryfie, a i może przy okazji wyjdzie Ci jakieś fajne intro.