Kurs gry na gitarze PDF [pobierz teraz]

Pierwsze ćwiczenia II

Do pełnego wykorzystania możliwości Twojej gitary konieczne jest wyćwiczenie palców lewej ręki.

Zanim przejdziemy do ćwiczeń, przyglądnij się dobrze poniższemu rysunkowi, na którym poszczególne palce lewej ręki oznaczone są numerkami. Jeżeli te numerki pojawią się nad tabulaturą będziesz dokładnie wiedzieć jak należy grać. Numerek powie Ci, którym palcem lewej ręki docisnąć strunę grając dany dźwięk.

Numery palców

A teraz spójrz na swoją lewą rękę i wyobraź sobie na niej te numerki. Literka T pochodzi od angielskiego określenia kciuka (thumb).

Przygotuj się od razu na to, że opuszki palców, na które właśnie patrzysz mogą Cię po pewnym czasie zacząć boleć. I to mogą Cię boleć bardzo. Mogą Cię boleć tak bardzo, że nie będziesz w stanie nic zagrać. Jeżeli tak się stanie to mam dla Ciebie poradę wprost z czasopism dla nastolatek - "to normalne, z czasem przejdzie". Skóra Twoich palców stwardnieje, zrobi się ciemniejsza i pokryje się specjalną łuską (no dobra, wkręcam Cię, po prostu stwardnieje, będzie to niezauważalne).



Jako pierwsze ćwiczenie zagraj wstęp do piosenki Son of the blue sky. Nad tabulaturą masz oznaczone, który palec przyciska strunę. Możesz to grać zarówno palcami jak i piórkiem, jak wolisz.

    1              1              1              2  1
e|--------------|--------------|--------------|--------------|
H|--------0-----|--------0-----|--------0-----|--------------|
G|-----0-----0--|-----0-----0--|-----0-----0--|--------0-----| (i tak w kółko)
D|--5-----------|--4-----------|--2-----------|-----2-----2--|
A|--------------|--------------|--------------|--3-----------|
E|--------------|--------------|--------------|--------------|

Wypróbuj też drugi wariant ułożenia palców lewej ręki:

    2              2              2              3  2
e|--------------|--------------|--------------|--------------|
H|--------0-----|--------0-----|--------0-----|--------------|
G|-----0-----0--|-----0-----0--|-----0-----0--|--------0-----|
D|--5-----------|--4-----------|--2-----------|-----2-----2--|
A|--------------|--------------|--------------|--3-----------|
E|--------------|--------------|--------------|--------------|

Jeżeli grasz palcami to w tym ćwiczeniu wypróbuj dwa warianty gry dla prawej ręki:

  • pierwszy dźwięk taktu grasz kciukiem a kolejne palcami: wskazującym i środkowym
  • kciuk opierasz na najgrubszej strunie, a wszystkie dźwięki wydobywasz palcami: wskazującym, środkowym i serdecznym

A teraz zmierz się ze strunami basowymi grając motyw z piosenki Gdy nie ma w domu dzieci.

                 1  3     1               1
e|---------------------|---------------------|
H|---------------------|---------------------|
G|---------------------|---------------------|
D|---------------------|---------------0--2--|
A|--0-----0-0-0--3--5--|--2-----2-2-2--------|
E|-----0---------------|-----0---------------|

                 1  3     1            2  1
e|---------------------|---------------------|--------------|
H|---------------------|---------------------|--------------|
G|---------------------|---------------------|--------------|
D|---------------------|------------0--------|--------------|
A|--0-----0-0-0--3--5--|--2-------2----3--2--|--0-----------|
E|-----0---------------|-----0--0------------|--------------|

I tutaj kolejna propozycja: zagraj powyższe ćwiczenie, wykorzystując z prawej ręki tylko kciuka.

Riff raff

Pewien wydzielony lub powtarzający się fragment muzyki gitarowej jest często nazywany riffem. Jednym z najprostszych riffów jest motyw powtarzający się w kółko w utworze Tata dilera:

       2    1  3
e|-----------------|
H|-----------------|
G|-----------------|
D|-----------------|
A|-----2-------3---|
E|--0-----0-1------|

A teraz czas na coś innego, ale nie powiem co, odgadnij grając :-)

       2        3           3 2
e|-----------|-----------|-----------|
H|-----------|-----------|-----------|
G|--0--------|-----------|------0----|
D|-----2--2--|--3--0--0--|----2------|
A|-----------|-----------|--3--------|
E|-----------|-----------|-----------|

       2        3           3 2
e|-----------|-----------|-----------|
H|-----------|-----------|-----------|
G|--0--------|-----------|-----------|
D|-----2--2--|--3--0--0--|----2------|
A|-----------|-----------|--3---3----|
E|-----------|-----------|-----------|

I jak? Wiesz już co to jest? Przećwicz też drugi wariant:

       1        2           2 1
e|-----------|-----------|-----------|
H|-----------|-----------|-----------|
G|--0--------|-----------|------0----|
D|-----2--2--|--3--0--0--|----2------|
A|-----------|-----------|--3--------|
E|-----------|-----------|-----------|

       1        2           2 1
e|-----------|-----------|-----------|
H|-----------|-----------|-----------|
G|--0--------|-----------|-----------|
D|-----2--2--|--3--0--0--|----2------|
A|-----------|-----------|--3---3----|
E|-----------|-----------|-----------|

Jeżeli powyższe ćwiczenia poszły Ci dobrze to możesz radośnie krzyknąć: Mamo! Potrafię grać na gitarze!

(w dziale Proste tabulatury znajdziesz więcej materiału do ćwiczeń)